About

24 December 2013

Neele Neele amber par Guitar Chords

Neele Neele amber par Guitar Chords

E#----------------------------------------------------------------------------
B#----------------------------------------------------------------------------
G#---2--3-2--3-2--3-2-3-2----0-2-0---0------------7---------------------------
D#-0-------------------------------3---3-2-3-2----7---------------------------
A#------------------------------------------------5---------------------------
E#----------------------------------------------5-----------------------------
                                                                              
 Neele neele ambar par                                                        
------------------------------------------------------------------------------
----------------------5-6-5-6-5-6-5h6p5---------------------------------------
------------------------------------------------------------------------------
------------------------------------------------------------------------------
------------------------------------------------------------------------------
------------------------------------------------------------------------------

 Chaand jab aaye                                                              
------------------------------------------------------------------------------
------------------------5-6-5----5-6p5----------------------------------------
----------------------7--------7----------------------------------------------
------------------------------------------------------------------------------
------------------------------------------------------------------------------
------------------------------------------------------------------------------

 Pyaar barsaaye                                                               
------------------------------------------------------------------------------
--------------------------5-6-8-8/10-8p6-5------------------------------------
----------------------5-7-----------------------------------------------------
------------------------------------------------------------------------------
------------------------------------------------------------------------------
------------------------------------------------------------------------------

 Humko tarsaaye                                                               
------------------------------------------------------------------------------
----------------------6-5--6-5--6-5-------------------------------------------
--------------------------------------7---------------------------------------
--------------------------------------7---------------------------------------
--------------------------------------5---------------------------------------
--------------------------------------5---------------------------------------

 Aisa koi saathi ho                                                           
------------------------------10----------------------------------------------
-------------------5-6-8-8/10-------------------------------------------------
-----------------7------------------------------------------------------------
------------------------------------------------------------------------------
------------------------------------------------------------------------------
------------------------------------------------------------------------------

 Aisa koi premi ho                                                            
----------------------6-8h10-10/12--12----------------------------------------
-------------------10---------------------------------------------------------
----------------10------------------------------------------------------------
------------------------------------------------------------------------------
------------------------------------------------------------------------------
------------------------------------------------------------------------------

 Pyaas dil ki                                                                 
------------------------------------------------------------------------------
------------------------------------------------------------------------------
------------10-11--10-11--10-11--10-11--10h11p10------------------------------
------------------------------------------------------------------------------
------------------------------------------------------------------------------
------------------------------------------------------------------------------

 Bujha jaaye                                                                  
------------------------------------------------------------------------------
------------------------------------------------------------------------------
-------------7----------------------------------------------------------------
-------------7----------------------------------------------------------------
-------------5----------------------------------------------------------------
------------------------------------------------------------------------------

 [Will be helpful if play it by using barred Dm chord at 5t fret]                  
------------------------------------------------------------------------------
------------------------------------------------------------------------------
------------------------------------------------------------------------------
------------5------------------------5----------------------------------------
---5-5----7--8--7-5---------5-5----7--8--7-5----------------------------------
-5-----5------------8-----5-----5------------8--------------------------------

 [Play the chords below when violin part is being played]
 Dm--------------C---------------Bb------------------A-------------------Dm---   


 [Play the chords below while singing]
 Dm          C              Dm
 Neele neele ambar par Chaand jab aye
 
 Dm       C              Dm
 Pyaar barsaaye Humko tarsaaye
 
 Dm                          C 
 Aisa koi saathi ho Aisa koi premi ho

 Bb           A        Dm
 Pyaas dil ki bujha jaaye

 Neele neele ambar par.....

[Below is the guitar part in the first antara]
------------------------------------------------------------------------------
------------------------------------------------------------------------------
----------------------------------------4-4/5-5-5--5--5-5-5-5-5-4--5-7-7------
-------5-5-5/7-7-7--7--7-7-7-7-7-5--7-8---------------------------------------
-5-7-8------------------------------------------------------------------------
------------------------------------------------------------------------------
                                                                              
                                                     [Play below part as fast 
                                                      as possible]                                                                              
-----------------------------5-5-5---3-3-3---1-1-1----------------------------
---5-6-5h6p5-----3-5-3h5p3---6-6-6---5-5-5---3-3-3----------------------------
-7-------------5-------------7-7-7---5-5-5---3-3-3----------------------------
-----------------------------7-7-7---5-5-5---3-3-3---7-8-7-5-7-5--5-----------
-----------------------------x-x-x---x-x-x---x-x-x---------------8--8-7-8-7-5-
-----------------------------x-x-x---x-x-x---x-x-x----------------------------

 Dm 
 Ho-o-o-o oonche oonche parvat
 
 C
 Jab choomte hain ambar ko 

 Bb 
 Pyaasaa pyaasaa ambar

 A             Dm
 Jab choomtaa hai saagar ko 

 Dm       C                    Dm 
 Pyaar se kasne ko baahon mein basne ko

 Dm        C                Dm
 Dil meraa lalchaaye Koi to aa jaaye

 Dm                          C 
 Aisa koi saathi ho Aisa koi premi ho

 Bb           A        Dm
 Pyaas dil ki bujha jaaye

 Neele neele ambar par.....

[Below is the guitar part in the second antara]
-5----------------------------------------------------------------------------
-5----------------------------------------------------------------------------
-7----------------------------------------------------------------------------
-7----7-7-7-7-7-7-7-7-7-7-7-7-7-7-7-7-8-10-8-7--------------------------------
-5---------------------------------------------7-7-10-10-7--------------------
-5----------------------------------------------------------------------------
                                                                              

-------------------------------------------------x--6--6----------------------
-------------------------------------------------x--6--6----------------------
-----5---5-5-7-7-5-5-----------------------------7--7--7----------------------
-7-8-----------------8-8-7-7-5-5-----------------8--8--8----------------------
---------------------------------8-8-7-7-5-5-----8--8--8----------------------
---------------------------------------------8-8-6--6--6----------------------
                                                                              

------------------------------------------------------------------------------
------------------------------------------------------------------------------
------------------------------------------------------------------------------
---------------------------------------------------------5-5-5-5--------------
-------------------------5-5-5-5-6-6-6-6-7-7-7-7-8-8-8-8----------------------
-6-6-6-6-7-7-7-7-8-8-8-8------------------------------------------------------                                                                              


--------------------------------------------------------------------------5-5-
--------------------------------------------------------------------------6-6-
------------------------------------------------------------------5-5-5-5-7-7-
----------------------------------5-5-5-5-6-6-6-6-7-7-7-7-8-8-8-8---------7-7-
-5-5-5-5-6-6-6-6-7-7-7-7-8-8-8-8------------------------------------------5-5-
--------------------------------------------------------------------------5-5-

 Dm 
 Ho-o-o-o thande thande jhonke 
 
 C
 Jab baalon ko sahlaayen

 Bb 
 Tapti tapti kirne 

 A             Dm
 Jab gaalon ko chhoo jaayen

 Dm       C                    Dm 
 Saanso ki garmi ko Haathon ki narmi ko

 Dm        C                Dm
 Mera man tarsaaye koi to chhoo jaaye

 Dm                          C 
 Aisa koi saathi ho Aisa koi premi ho

 Bb           A        Dm
 Pyaas dil ki bujha jaaye

 Neele neele ambar par.....


[Below is the guitar part same as in the first antara]
------------------------------------------------------------------------------
------------------------------------------------------------------------------
----------------------------------------4-4/5-5-5--5--5-5-5-5-5-4--5-7-7------
-------5-5-5/7-7-7--7--7-7-7-7-7-5--7-8---------------------------------------
-5-7-8------------------------------------------------------------------------
------------------------------------------------------------------------------
                                                                              
                                                     [Play below part as fast 
                                                      as possible]                                                                              
-----------------------------5-5-5---3-3-3---1-1-1----------------------------
---5-6-5h6p5-----3-5-3h5p3---6-6-6---5-5-5---3-3-3----------------------------
-7-------------5-------------7-7-7---5-5-5---3-3-3----------------------------
-----------------------------7-7-7---5-5-5---3-3-3---7-8-7-5-7-5--5-----------
-----------------------------x-x-x---x-x-x---x-x-x---------------8--8-7-8-7-5-
-----------------------------x-x-x---x-x-x---x-x-x----------------------------

 Dm 
 Ho-o-o-o Chham chham karta saawan 
 
 C
 Boondo ke baan chalaaye

 Bb 
 Satrangi barsaato me 

 A             Dm
 Jab tan man bheega jaaye

 Dm       C                    Dm 
 Pyaar me nahaane ko Doob hi jaane ko

 Dm        C                Dm
 Dil mera tadpaaye Khwaab jaga jaaye

 Dm                          C 
 Aisa koi saathi ho Aisa koi premi ho

 Bb           A        Dm
 Pyaas dil ki bujha jaaye

 Neele neele ambar par.....

Neele Neele amber par Guitar Chords

FOLLOW US ON FACEBOOK

Google+ Followers

Popular Posts

folkfguitartabs@ Proudly. Powered by Blogger.