About

24 December 2013

Chura liya hai tumne jo dil ko Guitar Chords

CHORDS in the SONG
Chura liya hai tumne jo dil ko Guitar Chords
Am - 002210
A - 002220
E - 022100
E7 - 022120
G - 320003
Dm - X00231
F - X33211
Esus4 - 022200

CHURALIYA INTRO
In the intro when the legendary glass and spoon groove starts
you play the E sus 4 chord
SLOW UPSTROKE

Then you play the following intro

E -----0-------|-----0-------|
B -------1-0---|-------1-0---|
G ---2-------2-|---2-------2-|
D -2-----------|-2-----------|
A -------------|-------------|
E -------------|-------------|

E -------------|-------------|
B -----1-0-----|-----3-0-----|
G ---2-----2---|---2-----2-1-|
D -3---------3-|-0-----------|
A -------------|-------------|
E -------------|-------------|

E -------0----------|----------|
B -----3---3--0-----|----------|
G ---1---------2-1--|-1----1---|
D -2--------------2-|----2-----|
A -----------[fast]-|----------|
E ------------------|----------|

E -----------------|-----------------|
B 0---0---0---0----|0---0---0---0----|
G ---2---2---2---2-|---2---2---2---2-|
D -----------------|-----------------|
A -----------------|-----------------|
E -----------------|-----------------|


SONG CHORDS

#####################################
SIGN
#####################################

Am-----------------------G------------
Chura liya hai tum ne jo dil ko

Am-----------------------E-----E7-----
Nazar nahi chura na sa nam

Am----------------------G-------------
Badal ke meri tum zinda gaani

Am--------------------------E---------
Kahin badal na jaaa naa sa nam

#####################################
CROSS
#####################################

-------E7---------
Ho le liyaaaa dil

-------E7---------
Hai me raaaaaa dil

--------A-------------A----------
Hai dil le ke mujh ko na beh lana

#####################################
ANTRA
#####################################

-----Dm------------G-------
Hooo Sajaoonga lut kar bhi

------Am-------------Am----
Tere badan ki daali ko

Dm-------------G-----------
Lahoo jigar ka doonga

-------F----------Am-------
Hansee labon ki laali ko

#####################################
Repeat ANTRA
Repeat CROSS
Repeat SIGN
#####################################



1st music is basically the Le liya dil part on violin, and then the guitar plays arpeggios of

Amin, Esus4, E, Amin

CHURALIA (SECOND MUSIC ON GUITAR)
BEFORE THE MALE VERSE

E ------------------|----------------|
B ------------------|----------------|
G -----8/9----------|----------------|
D -6/7-----6/7-7-7--|-7--9-7---------|
A ------------------|--------10------|
E ------------------|----------------|

E -------------------|-------------|
B -------------------|-------------|
G ------7------------|-------------|
D -------------------|-9--10-9-7---|
A -9/10---9/10-10-10-|-------------|
E -------------------|-------------|

The second time this piece repeats on violin ensemble
You play chords ( / Am / Am . G / F / Am / )
Chura liya hai tumne jo dil ko Guitar Chords

FOLLOW US ON FACEBOOK

Google+ Followers

Popular Posts

folkfguitartabs@ Proudly. Powered by Blogger.