About

02 July 2013

Words and Music by Buddy Holly,Jerry Allison,Joe Mauldin and Norman Petty - guitar chords

INTRO
             F     Eb        F                       C7         F
E|--------|----------------|----------------|-----------------|---------|
B|--------|----------------|----------------|-----------------|---------|
G|--------|----------------|----------------|-----------------|---------|
D|----0-3-|--3-3-3-1-1-1-1-|-3-3-3-3---0----|-----------------|---------|
A|-3------|----------------|---------3----3-|--3-3-3--3-3-3-3-|-3-3-3-3-|
E|--------|----------------|----------------|-----------------|---------|

F                   Eb         F 
Well, all right, so I'm being foolish
F                     C7    F
Well, all right, let people know
F                     Eb     F
About the dreams and wishes you wish
F                      C7         F
In the night when the lights are low

F          Bb              C7
Well, all right, well all right
       F        Eb       F
We'll live and love with all our might
           Bb              C7
Well, all right, well all right
     F        Eb       F
Our lifetime love will be all right

(REPEAT INTRO)

F                   Eb         F
Well, all right, so I'm going steady
F                   C7      F
It's all right when people say
F                        Eb       F
That those foolish kids can't be ready
 F                 C7          F
For the love that comes their way

F          Bb               C7
Well, all right, well, all right
       F        Eb        F
We'll live and love with all our might
           Bb               C7
Well, all right, well, all right
     F        Eb       F
Our lifetime love will be all right

(REPEAT INTRO)

F          Bb               C7
Well, all right, well, all right
       F        Bb        F
We'll live and love with all our might
           Bb               C7
Well, all right, well, all right
     F        Eb       F
Our lifetime love will be all right

   F                 Eb        F                          C7          F
E|---------|-----------------|------------------|-------------------|-----------|
B|---------|-----------------|------------------|-------------------|-----------|
G|---------|-----------------|------------------|-------------------|-----------|
D|-----0-3-|--3-3-3--1-1-1-1-|-3-3-3-3--3---0-3-|--3-3-3--5-5-5-5-5-|-3-3-3-3---|
A|---3-----|-----------------|------------3-----|-------------------|-----------|
E|---------|-----------------|------------------|-------------------|-----------|

FOLLOW US ON FACEBOOK

Google+ Followers

Popular Posts

folkfguitartabs@ Proudly. Powered by Blogger.