About

24 December 2013

Meri Maa - Main Kabhi Batlata Nahin - Guitar Chords

Meri Maa - Main Kabhi Batlata Nahin - Guitar Chords

C F C
Main Kabhi Batlata Nahin
G F C 
Par Andhere Se Darta Hoon Main Maa
C F C
Yun To Main,Dikhlata Nahin
G F C
Teri Parwaah Karta Hoon Main Maa
F G C 
Tujhe Sab Hain Pata, Hain Na Maa
F G C 
Tujhe Sab Hain Pata.....,Meri Maa

Meri Maa - Main Kabhi Batlata Nahin - Guitar Chords
Meri Maa - Main Kabhi Batlata Nahin - Guitar Chords

C F C
Bheed Mein Yun Na Chodo Mujhe
G F C 
Ghar Laut Ke Bhi Aa Naa Paoon Maa
C F C
Bhej Na Itna Door Mujkko Tu
G F C 
Yaad Bhi Tujhko Aa Naa Paoon Maa
F G C 
Kya Itna Bura Hoon Main Maa
F G C 
Kya Itna Bura..... Meri Maa



e|---------------1/3--1-|---------------1/3--1-|
b|-8/10--8--------------|-8/10--8--------------|
g|-------------5--------|-------------5--------|
d|---------5h7----------|---------5h7----------|
a|----------------------|----------------------|
E|----------------------|----------------------|

e|----------------------|----------------------|
b|---------5----6-------|--5-6---6/8---6-5-6---|
g|------5-----7---------|----------------------|
d|--5h7-----------------|--5h7-----------------|
a|----------------------|----------------------|
E|----------------------|----------------------|

e|----------------------|--------------8-------|
b|---------5----6----|--5-6---6/8-----------|
g|------5-----7--------|----------------------|
d|--5h7--------------|--5h7-----------------|
a|----------------------|----------------------|
E|----------------------|----------------------|

e|-8/10--10/12-12b-10-8-|
b|----------------------|
g|----------------------|


C F
Jab Bhi Kabhi Papa Mujhe
C G C
Jo Zor Se Jhoola Jhulate Hain Maa
C F
Meri Nazar Dhoondhe Tujhe
C G C
Sochu Yahi Tu Aa Ke Thaamegi Maa

Other Stanza same as the first one

Meri Maa - Main Kabhi Batlata Nahin - Guitar Chords

FOLLOW US ON FACEBOOK

Google+ Followers

Popular Posts

folkfguitartabs@ Proudly. Powered by Blogger.