About

23 October 2013

Beatles for Sale Album Eight Days A Week

   D                            E

E|--0---------0-----0-------0--|-0--------0----0------0--------|
B|-10--------10----12------10--|12-------12---14-----12--------|
G|-11--------11----11------11--|13-------13---13-----13--------|
D|-12--------12----12------12--|14-------14---14-----14--------|
A|--------------------------- -|-------------------------------|
E|-----------------------------|-------------------------------|

   G                            D

E|--0---------0-----0-------0--|-0--------0----0------0--------|
B|-15--------15----17------15--|10-------10---12-----10--------|
G|-16--------16----16------16--|11-------11---13-----11--------|
D|-17--------17----17------17--|12-------12---14-----12--------|
A|-----------------------------|-------------------------------|
E|-----------------------------|-------------------------------|

Verse 1

D                 E            G                   D

Oo, I need your love, babe,  guess you know it's true

D                  E           G                 D

Hope you need my love, babe,  just like I need you
Eight Days A Week

Chorus 1

 Bm           G         Bm           E

Hold me,    love me,   Hold me,     love me,

   D                      E          G                 D

I ain't got noth-in' but love babe,    Eight Day's A Week

Verse 2

D                E          G              D

Love you every day, girl,  always on my mind

D                E          G                   D

One thing I can say, girl,  love you all the time

Chorus 2

Bm           G         Bm           E

Hold me,    love me,   Hold me,     love me,

   D                      E          G                 D

I ain't got noth-in' but love girl,    Eight Day's A Week

Bridge

A                       Bm

Eight days a week      I love you

E                    G              A

Eight days a week is not enough to show I care

[Repeat Verse 1]

[Repeat Chorus 1]

[Repeat Bridge]

[Repeat Verse 2]

[Repeat Chorus 1]

G               D

Eight Days A Week

G               D

Eight Days A Week

G               D

Eight Days A Week

FOLLOW US ON FACEBOOK

Google+ Followers

Popular Posts

folkfguitartabs@ Proudly. Powered by Blogger.