About

15 January 2013

Been To Hell Guitar Tab


e|-------------------------------------------------|
B|-------------------------------------------------|
G|-------------------------------------------------|
D|--2-x-2~-----9-7-5~--2-5-7~----------------------|
A|--2-x-2~-----9-7-5~--2-5-7~----------------------|
D|--2-x-2~-----9-7-5~--2-5-7~----------------------|


Part 1
e|-------------------------------------------------|
B|-------------------------------------------------|
G|-------------------------------------------------|
D|---222-----222~--x-x-----------------------------|
A|---222--x3-222~--x-x-----------------------------|
D|---222-----222~--x-x-----------------------------|

Part 2

e|-------------------------------------------------|
B|-------------------------------------------------|
G|------------------------------x-x-x-x------------|
D|--222-------------------222~--x-x-x-x------------|
A|--222-2-0-------0---x3--222~--x-x-x-x------------|
D|--222-----5~-2-5--------222~--x-x-x-x------------|

Chorus :


e|-------------------------------------------------|
B|-------------------------------------------------|
G|-------------------------------------------------|
D|--222~-22/5-55-0~-000--222~-22/5-55-7~-777-------|x2
A|--222~-22/5-55-0~-000--222~-22/5-55-7~-777-------|
D|--222~-22/5-55-0~-000--222~-22/5-55-7~-777-------|

FOLLOW US ON FACEBOOK

Google+ Followers

Popular Posts

folkfguitartabs@ Proudly. Powered by Blogger.